0
SECTION
2
HEADER
9
$EXTMIN
10
1.0
20
1.0
9
$EXTMAX
10
10.0
20
10.0
0
ENDSEC
0
SECTION
2
TABLES
0
TABLE
2
LTYPE
70
1
0
LTYPE
2
CONTINUOUS
70
64
3
Solid line
72
65
73
0
40
0.0
0
ENDTAB
0
TABLE
2
LAYER
70
5
0
LAYER
2
LINES
70
0
62
1
6
CONTINUOUS
0
LAYER
2
TEXT
70
0
62
2
6
CONTINUOUS
0
LAYER
2
ARC
70
0
62
4
6
CONTINUOUS
0
LAYER
2
SOLID
70
0
62
5
6
CONTINUOUS
0
LAYER
2
POLY
70
0
62
7
6
CONTINUOUS
0
ENDTAB
0
TABLE
2
VIEW
70
0
0
ENDTAB
0
ENDSEC
0
SECTION
2
ENTITIES
0
SOLID
8
POLY
10
-1.0
20
0.0
30
0.0
11
12.0
21
0.0
31
0.0
12
-1.0
22
12.0
32
0.0
13
12.0
23
12.0
33
0.0
39
0.0
0
SOLID
8
SOLID
10
2.0
20
1.0
30
0.0
11
3.0
21
1.0
31
0.0
12
2.0
22
3.0
32
0.0
13
3.0
23
3.0
33
0.0
39
0.0
0
SOLID
8
SOLID
10
4.0
20
1.0
30
0.0
11
5.0
21
1.0
31
0.0
12
4.0
22
5.0
32
0.0
13
5.0
23
5.0
33
0.0
39
0.0
0
SOLID
8
SOLID
10
6.0
20
1.0
30
0.0
11
7.0
21
1.0
31
0.0
12
6.0
22
7.0
32
0.0
13
7.0
23
7.0
33
0.0
39
0.0
0
SOLID
8
SOLID
10
8.0
20
1.0
30
0.0
11
9.0
21
1.0
31
0.0
12
8.0
22
9.0
32
0.0
13
9.0
23
9.0
33
0.0
39
0.0
0
SOLID
8
SOLID
10
10.0
20
1.0
30
0.0
11
11.0
21
1.0
31
0.0
12
10.0
22
11.0
32
0.0
13
11.0
23
11.0
33
0.0
39
0.0
0
SOLID
8
LINES
10
1.0
20
1.0
30
0.0
11
2.0
21
1.0
31
0.0
12
1.0
22
2.0
32
0.0
13
2.0
23
2.0
33
0.0
39
0.0
0
SOLID
8
LINES
10
3.0
20
1.0
30
0.0
11
4.0
21
1.0
31
0.0
12
3.0
22
4.0
32
0.0
13
4.0
23
4.0
33
0.0
39
0.0
0
SOLID
8
LINES
10
5.0
20
1.0
30
0.0
11
6.0
21
1.0
31
0.0
12
5.0
22
6.0
32
0.0
13
6.0
23
6.0
33
0.0
39
0.0
0
SOLID
8
LINES
10
7.0
20
1.0
30
0.0
11
8.0
21
1.0
31
0.0
12
7.0
22
8.0
32
0.0
13
8.0
23
8.0
33
0.0
39
0.0
0
SOLID
8
LINES
10
9.0
20
1.0
30
0.0
11
10.0
21
1.0
31
0.0
12
9.0
22
10.0
32
0.0
13
10.0
23
10.0
33
0.0
39
0.0
0
POLYLINE
8
POLY
66
1
0
VERTEX
8
POLY
10
1.0
20
1.0
30
0.0
40
0.5
41
0.3
0
VERTEX
8
POLY
10
2.0
20
3.0
30
0.0
40
0.3
41
0.5
0
VERTEX
8
POLY
10
4.0
20
3.0
30
0.0
40
0.8
41
0.1
0
VERTEX
8
POLY
10
6.0
20
5.0
30
0.0
40
0.3
41
0.3
0
SEQEND
0
LINE
8
LINES
10
0.0
20
0.5
30
0.0
11
8.0
21
0.5
31
0.0
0
LINE
8
LINES
10
0.0
20
0.5
30
0.0
11
0.0
21
8.0
31
0.0
0
TEXT
8
TEXT
10
0.0
20
10.0
30
0.0
40
1.0
1
TurboDXF! the DLL
50
0.0
0
CIRCLE
8
ARC
10
3.0
20
3.0
30
0.0
40
2.0
39
0.0
0
TEXT
8
TEXT
10
3.0
20
3.0
30
0.0
40
0.3
1
TurboDXF!
50
45.0
0
TEXT
8
TEXT
10
3.0
20
3.0
30
0.0
40
0.3
1
TurboDXF!
50
90.0
0
TEXT
8
TEXT
10
3.0
20
3.0
30
0.0
40
0.3
1
TurboDXF!
50
135.0
0
TEXT
8
TEXT
10
3.0
20
3.0
30
0.0
40
0.3
1
TurboDXF!
50
180.0
0
TEXT
8
TEXT
10
3.0
20
3.0
30
0.0
40
0.3
1
TurboDXF!
50
225.0
0
TEXT
8
TEXT
10
3.0
20
3.0
30
0.0
40
0.3
1
TurboDXF!
50
270.0
0
TEXT
8
TEXT
10
3.0
20
3.0
30
0.0
40
0.3
1
TurboDXF!
50
315.0
0
TEXT
8
TEXT
10
3.0
20
3.0
30
0.0
40
0.3
1
TurboDXF!
50
360.0
0
TEXT
8
TEXT
10
3.0
20
3.0
30
0.0
40
0.3
1
TurboDXF!
50
405.0
0
TEXT
8
TEXT
10
3.0
20
3.0
30
0.0
40
0.3
1
TurboDXF!
50
450.0
0
TEXT
8
TEXT
10
3.0
20
3.0
30
0.0
40
0.3
1
TurboDXF!
50
495.0
0
TEXT
8
TEXT
10
3.0
20
3.0
30
0.0
40
0.3
1
TurboDXF!
50
540.0
0
TEXT
8
TEXT
10
3.0
20
3.0
30
0.0
40
0.3
1
TurboDXF!
50
585.0
0
TEXT
8
TEXT
10
3.0
20
3.0
30
0.0
40
0.3
1
TurboDXF!
50
630.0
0
TEXT
8
TEXT
10
3.0
20
3.0
30
0.0
40
0.3
1
TurboDXF!
50
675.0
0
TEXT
8
TEXT
10
3.0
20
3.0
30
0.0
40
0.3
1
TurboDXF!
50
720.0
0
TEXT
8
TEXT
10
3.0
20
3.0
30
0.0
40
0.3
1
TurboDXF!
50
765.0
0
TEXT
8
TEXT
10
3.0
20
3.0
30
0.0
40
0.3
1
TurboDXF!
50
810.0
0
TEXT
8
TEXT
10
3.0
20
3.0
30
0.0
40
0.3
1
TurboDXF!
50
855.0
0
TEXT
8
TEXT
10
3.0
20
3.0
30
0.0
40
0.3
1
TurboDXF!
50
900.0
0
TEXT
8
TEXT
10
3.0
20
3.0
30
0.0
40
0.3
1
TurboDXF!
50
945.0
0
TEXT
8
TEXT
10
3.0
20
3.0
30
0.0
40
0.3
1
TurboDXF!
50
990.0
0
TEXT
8
TEXT
10
3.0
20
3.0
30
0.0
40
0.3
1
TurboDXF!
50
1035.0
0
TEXT
8
TEXT
10
3.0
20
3.0
30
0.0
40
0.3
1
TurboDXF!
50
1080.0
0
TEXT
8
TEXT
10
3.0
20
3.0
30
0.0
40
0.3
1
TurboDXF!
50
1125.0
0
TEXT
8
TEXT
10
3.0
20
3.0
30
0.0
40
0.3
1
TurboDXF!
50
1170.0
0
TEXT
8
TEXT
10
3.0
20
3.0
30
0.0
40
0.3
1
TurboDXF!
50
1215.0
0
TEXT
8
TEXT
10
3.0
20
3.0
30
0.0
40
0.3
1
TurboDXF!
50
1260.0
0
TEXT
8
TEXT
10
3.0
20
3.0
30
0.0
40
0.3
1
TurboDXF!
50
1305.0
0
TEXT
8
TEXT
10
3.0
20
3.0
30
0.0
40
0.3
1
TurboDXF!
50
1350.0
0
TEXT
8
TEXT
10
3.0
20
3.0
30
0.0
40
0.3
1
TurboDXF!
50
1395.0
0
TEXT
8
TEXT
10
3.0
20
3.0
30
0.0
40
0.3
1
TurboDXF!
50
1440.0
0
TEXT
8
TEXT
10
3.0
20
3.0
30
0.0
40
0.3
1
TurboDXF!
50
1485.0
0
TEXT
8
TEXT
10
3.0
20
3.0
30
0.0
40
0.3
1
TurboDXF!
50
1530.0
0
TEXT
8
TEXT
10
3.0
20
3.0
30
0.0
40
0.3
1
TurboDXF!
50
1575.0
0
TEXT
8
TEXT
10
3.0
20
3.0
30
0.0
40
0.3
1
TurboDXF!
50
1620.0
0
TEXT
8
TEXT
10
3.0
20
3.0
30
0.0
40
0.3
1
TurboDXF!
50
1665.0
0
TEXT
8
TEXT
10
3.0
20
3.0
30
0.0
40
0.3
1
TurboDXF!
50
1710.0
0
TEXT
8
oDXF!
10
 1.00000000000000E+0000
20
 5.50000000000000E+0000
30
0
40
 2.52000000000000E-0001
1
Maximum elements 75 exceeded in DLL demo.
50
0
0
TEXT
8
oDXF!
10
 1.00000000000000E+0000
20
 5.14000000000000E+0000
30
0
40
 2.52000000000000E-0001
1
TurboDXF (C) 1992 Ideal Engineering Software and David Dorosh
50
0
0
TEXT
8
oDXF!
10
 1.00000000000000E+0000
20
 4.78000000000000E+0000
30
0
40
 2.52000000000000E-0001
1
29 - 8560 162nd St., Surrey, B.C., Canada, V3S 3V4
50
0
0
TEXT
8
oDXF!
10
 1.00000000000000E+0000
20
 4.42000000000000E+0000
30
0
40
 2.52000000000000E-0001
1
Full working version with demos and manual is only $50.00
50
0
0
ENDSEC
0
EOF
